ISO-10303-21;
HEADER;
FILE_DESCRIPTION (( 'STEP AP203' ),
    '1' );
FILE_NAME ('BK7-RNDF-50-0.1.STEP',
    '2020-12-22T01:28:43',
    ( '' ),
    ( '' ),
    'SwSTEP 2.0',
    'SolidWorks 2020',
    '' );
FILE_SCHEMA (( 'CONFIG_CONTROL_DESIGN' ));
ENDSEC;

DATA;
#1 = LOCAL_TIME ( 9, 28, 43.00000000000000000, #161 ) ;
#2 = ORIENTED_EDGE ( 'NONE', *, *, #44, .T. ) ;
#3 = DESIGN_CONTEXT ( 'detailed design', #25, 'design' ) ;
#4 = VERTEX_POINT ( 'NONE', #85 ) ;
#5 = ORIENTED_EDGE ( 'NONE', *, *, #88, .T. ) ;
#6 = APPROVAL_PERSON_ORGANIZATION ( #55, #120, #142 ) ;
#7 = PRODUCT_RELATED_PRODUCT_CATEGORY ( 'detail', '', ( #38 ) ) ;
#8 = FACE_OUTER_BOUND ( 'NONE', #138, .T. ) ;
#9 = ORIENTED_EDGE ( 'NONE', *, *, #44, .F. ) ;
#10 = DIRECTION ( 'NONE',  ( -1.000000000000000000, 0.000000000000000000, -0.000000000000000000 ) ) ;
#11 = CC_DESIGN_APPROVAL ( #124, ( #174 ) ) ;
#12 = CYLINDRICAL_SURFACE ( 'NONE', #22, 25.00000000000000000 ) ;
#13 = DIRECTION ( 'NONE',  ( 0.000000000000000000, 0.000000000000000000, 1.000000000000000000 ) ) ;
#14 = APPROVAL ( #175, 'UNSPECIFIED' ) ;
#15 = APPROVAL_ROLE ( '' ) ;
#16 = CC_DESIGN_SECURITY_CLASSIFICATION ( #104, ( #174 ) ) ;
#17 = DATE_AND_TIME ( #18, #84 ) ;
#18 = CALENDAR_DATE ( 2020, 22, 12 ) ;
#19 = ADVANCED_FACE ( 'NONE', ( #8 ), #39, .T. ) ;
#20 = PERSON_AND_ORGANIZATION ( #47, #164 ) ;
#21 = VERTEX_POINT ( 'NONE', #66 ) ;
#22 = AXIS2_PLACEMENT_3D ( 'NONE', #73, #75, #140 ) ;
#23 = ORIENTED_EDGE ( 'NONE', *, *, #33, .T. ) ;
#24 = PRODUCT_DEFINITION_SHAPE ( 'NONE', 'NONE',  #51 ) ;
#25 = APPLICATION_CONTEXT ( 'configuration controlled 3d designs of mechanical parts and assemblies' ) ;
#26 = DIRECTION ( 'NONE',  ( -1.000000000000000000, -0.000000000000000000, -0.000000000000000000 ) ) ;
#27 = APPLICATION_CONTEXT ( 'configuration controlled 3d designs of mechanical parts and assemblies' ) ;
#28 = DIRECTION ( 'NONE',  ( -0.000000000000000000, 0.000000000000000000, 1.000000000000000000 ) ) ;
#29 = ORIENTED_EDGE ( 'NONE', *, *, #153, .F. ) ;
#30 = PERSON_AND_ORGANIZATION ( #47, #164 ) ;
#31 = APPROVAL_DATE_TIME ( #43, #120 ) ;
#32 = COORDINATED_UNIVERSAL_TIME_OFFSET ( 8, 0, .AHEAD. ) ;
#33 = EDGE_CURVE ( 'NONE', #21, #61, #103, .T. ) ;
#34 = ADVANCED_FACE ( 'NONE', ( #135 ), #12, .T. ) ;
#35 = EDGE_LOOP ( 'NONE', ( #148, #2 ) ) ;
#36 = ORIENTED_EDGE ( 'NONE', *, *, #33, .F. ) ;
#37 = CC_DESIGN_APPROVAL ( #14, ( #51 ) ) ;
#38 = PRODUCT ( 'BK7-RNDF-50-0.1', 'BK7-RNDF-50-0.1', '', ( #56 ) ) ;
#39 = CYLINDRICAL_SURFACE ( 'NONE', #139, 25.00000000000000000 ) ;
#40 = EDGE_LOOP ( 'NONE', ( #97, #125 ) ) ;
#41 = PERSON_AND_ORGANIZATION ( #47, #164 ) ;
#42 = PERSON_AND_ORGANIZATION ( #47, #164 ) ;
#43 = DATE_AND_TIME ( #159, #81 ) ;
#44 = EDGE_CURVE ( 'NONE', #61, #82, #121, .T. ) ;
#45 = DATE_AND_TIME ( #80, #162 ) ;
#46 = AXIS2_PLACEMENT_3D ( 'NONE', #166, #137, #64 ) ;
#47 = PERSON ( 'UNSPECIFIED', 'UNSPECIFIED', 'UNSPECIFIED', ('UNSPECIFIED'), ('UNSPECIFIED'), ('UNSPECIFIED') ) ;
#48 = EDGE_CURVE ( 'NONE', #21, #4, #91, .T. ) ;
#49 = CLOSED_SHELL ( 'NONE', ( #34, #19, #101, #123 ) ) ;
#50 = PLANE ( 'NONE',  #163 ) ;
#51 = PRODUCT_DEFINITION ( 'UNKNOWN', '', #174, #3 ) ;
#52 = DIRECTION ( 'NONE',  ( 0.000000000000000000, 0.000000000000000000, 1.000000000000000000 ) ) ;
#53 = DIRECTION ( 'NONE',  ( 0.000000000000000000, 0.000000000000000000, 1.000000000000000000 ) ) ;
#54 = DIRECTION ( 'NONE',  ( -1.000000000000000000, -0.000000000000000000, -0.000000000000000000 ) ) ;
#55 = PERSON_AND_ORGANIZATION ( #47, #164 ) ;
#56 = MECHANICAL_CONTEXT ( 'NONE', #27, 'mechanical' ) ;
#57 =( GEOMETRIC_REPRESENTATION_CONTEXT ( 3 ) GLOBAL_UNCERTAINTY_ASSIGNED_CONTEXT ( ( #155 ) ) GLOBAL_UNIT_ASSIGNED_CONTEXT ( ( #83, #126, #112 ) ) REPRESENTATION_CONTEXT ( 'NONE', 'WORKASPACE' ) );
#58 = DIRECTION ( 'NONE',  ( 0.000000000000000000, 0.000000000000000000, 1.000000000000000000 ) ) ;
#59 = APPROVAL_STATUS ( 'not_yet_approved' ) ;
#60 = AXIS2_PLACEMENT_3D ( 'NONE', #113, #10, #28 ) ;
#61 = VERTEX_POINT ( 'NONE', #63 ) ;
#62 = CC_DESIGN_DATE_AND_TIME_ASSIGNMENT ( #17, #77, ( #104 ) ) ;
#63 = CARTESIAN_POINT ( 'NONE',  ( -2.694222958124177204E-15, 3.061616997868383043E-15, -25.00000000000000000 ) ) ;
#64 = DIRECTION ( 'NONE',  ( 0.000000000000000000, 0.000000000000000000, 1.000000000000000000 ) ) ;
#65 = EDGE_LOOP ( 'NONE', ( #5, #23, #96, #29 ) ) ;
#66 = CARTESIAN_POINT ( 'NONE',  ( 1.999999999999997113, 3.061616997868383043E-15, -25.00000000000000000 ) ) ;
#67 = DIRECTION ( 'NONE',  ( -1.000000000000000000, -0.000000000000000000, -0.000000000000000000 ) ) ;
#68 = PERSON_AND_ORGANIZATION ( #47, #164 ) ;
#69 = LOCAL_TIME ( 9, 28, 43.00000000000000000, #32 ) ;
#70 = CALENDAR_DATE ( 2020, 22, 12 ) ;
#71 = APPLICATION_PROTOCOL_DEFINITION ( 'international standard', 'config_control_design', 1994, #25 ) ;
#72 = VECTOR ( 'NONE', #67, 1000.000000000000000 ) ;
#73 = CARTESIAN_POINT ( 'NONE',  ( 0.000000000000000000, 0.000000000000000000, 0.000000000000000000 ) ) ;
#74 = AXIS2_PLACEMENT_3D ( 'NONE', #145, #58, #79 ) ;
#75 = DIRECTION ( 'NONE',  ( -1.000000000000000000, -0.000000000000000000, -0.000000000000000000 ) ) ;
#76 = CARTESIAN_POINT ( 'NONE',  ( -2.694222958124177204E-15, 0.000000000000000000, 0.000000000000000000 ) ) ;
#77 = DATE_TIME_ROLE ( 'classification_date' ) ;
#78 = CC_DESIGN_PERSON_AND_ORGANIZATION_ASSIGNMENT ( #42, #170, ( #38 ) ) ;
#79 = DIRECTION ( 'NONE',  ( 1.000000000000000000, 0.000000000000000000, 0.000000000000000000 ) ) ;
#80 = CALENDAR_DATE ( 2020, 22, 12 ) ;
#81 = LOCAL_TIME ( 9, 28, 43.00000000000000000, #93 ) ;
#82 = VERTEX_POINT ( 'NONE', #129 ) ;
#83 =( LENGTH_UNIT ( ) NAMED_UNIT ( * ) SI_UNIT ( .MILLI., .METRE. ) );
#84 = LOCAL_TIME ( 9, 28, 43.00000000000000000, #106 ) ;
#85 = CARTESIAN_POINT ( 'NONE',  ( 1.999999999999997113, 0.000000000000000000, 25.00000000000000000 ) ) ;
#86 = CIRCLE ( 'NONE', #110, 25.00000000000000000 ) ;
#87 = APPLICATION_PROTOCOL_DEFINITION ( 'international standard', 'config_control_design', 1994, #27 ) ;
#88 = EDGE_CURVE ( 'NONE', #4, #21, #136, .T. ) ;
#89 = LINE ( 'NONE', #150, #115 ) ;
#90 = CARTESIAN_POINT ( 'NONE',  ( 0.000000000000000000, 0.000000000000000000, 0.000000000000000000 ) ) ;
#91 = CIRCLE ( 'NONE', #46, 25.00000000000000000 ) ;
#92 = CC_DESIGN_PERSON_AND_ORGANIZATION_ASSIGNMENT ( #118, #107, ( #104 ) ) ;
#93 = COORDINATED_UNIVERSAL_TIME_OFFSET ( 8, 0, .AHEAD. ) ;
#94 = APPROVAL_STATUS ( 'not_yet_approved' ) ;
#95 = DATE_AND_TIME ( #144, #1 ) ;
#96 = ORIENTED_EDGE ( 'NONE', *, *, #147, .F. ) ;
#97 = ORIENTED_EDGE ( 'NONE', *, *, #88, .F. ) ;
#98 = CARTESIAN_POINT ( 'NONE',  ( -1.347111479062088602E-15, 25.00000000000000000, 0.000000000000000000 ) ) ;
#99 = CARTESIAN_POINT ( 'NONE',  ( -2.694222958124177204E-15, 0.000000000000000000, 0.000000000000000000 ) ) ;
#100 = DIRECTION ( 'NONE',  ( -1.000000000000000000, -0.000000000000000000, -0.000000000000000000 ) ) ;
#101 = ADVANCED_FACE ( 'NONE', ( #165 ), #152, .F. ) ;
#102 = DIRECTION ( 'NONE',  ( -1.000000000000000000, -0.000000000000000000, -0.000000000000000000 ) ) ;
#103 = LINE ( 'NONE', #167, #72 ) ;
#104 = SECURITY_CLASSIFICATION ( '', '', #119 ) ;
#105 = PERSON_AND_ORGANIZATION_ROLE ( 'creator' ) ;
#106 = COORDINATED_UNIVERSAL_TIME_OFFSET ( 8, 0, .AHEAD. ) ;
#107 = PERSON_AND_ORGANIZATION_ROLE ( 'classification_officer' ) ;
#108 = COORDINATED_UNIVERSAL_TIME_OFFSET ( 8, 0, .AHEAD. ) ;
#109 = CC_DESIGN_PERSON_AND_ORGANIZATION_ASSIGNMENT ( #146, #105, ( #51 ) ) ;
#110 = AXIS2_PLACEMENT_3D ( 'NONE', #99, #54, #151 ) ;
#111 = ORIENTED_EDGE ( 'NONE', *, *, #48, .T. ) ;
#112 =( NAMED_UNIT ( * ) SI_UNIT ( $, .STERADIAN. ) SOLID_ANGLE_UNIT ( ) );
#113 = CARTESIAN_POINT ( 'NONE',  ( 1.999999999999998224, 25.00000000000000000, 0.000000000000000000 ) ) ;
#114 = DIRECTION ( 'NONE',  ( 1.000000000000000000, 0.000000000000000000, 0.000000000000000000 ) ) ;
#115 = VECTOR ( 'NONE', #102, 1000.000000000000000 ) ;
#116 = ADVANCED_BREP_SHAPE_REPRESENTATION ( 'BK7-RNDF-50-0.1', ( #160, #74 ), #57 ) ;
#117 = DIRECTION ( 'NONE',  ( -1.000000000000000000, -0.000000000000000000, -0.000000000000000000 ) ) ;
#118 = PERSON_AND_ORGANIZATION ( #47, #164 ) ;
#119 = SECURITY_CLASSIFICATION_LEVEL ( 'unclassified' ) ;
#120 = APPROVAL ( #94, 'UNSPECIFIED' ) ;
#121 = CIRCLE ( 'NONE', #157, 25.00000000000000000 ) ;
#122 = SHAPE_DEFINITION_REPRESENTATION ( #24, #116 ) ;
#123 = ADVANCED_FACE ( 'NONE', ( #154 ), #50, .F. ) ;
#124 = APPROVAL ( #59, 'UNSPECIFIED' ) ;
#125 = ORIENTED_EDGE ( 'NONE', *, *, #48, .F. ) ;
#126 =( NAMED_UNIT ( * ) PLANE_ANGLE_UNIT ( ) SI_UNIT ( $, .RADIAN. ) );
#127 = CARTESIAN_POINT ( 'NONE',  ( 1.999999999999997113, 0.000000000000000000, 0.000000000000000000 ) ) ;
#128 = AXIS2_PLACEMENT_3D ( 'NONE', #127, #117, #13 ) ;
#129 = CARTESIAN_POINT ( 'NONE',  ( -2.694222958124177204E-15, 0.000000000000000000, 25.00000000000000000 ) ) ;
#130 = PERSON_AND_ORGANIZATION_ROLE ( 'design_supplier' ) ;
#131 = PERSON_AND_ORGANIZATION_ROLE ( 'creator' ) ;
#132 = APPROVAL_DATE_TIME ( #45, #124 ) ;
#133 = ORIENTED_EDGE ( 'NONE', *, *, #153, .T. ) ;
#134 = CC_DESIGN_PERSON_AND_ORGANIZATION_ASSIGNMENT ( #68, #130, ( #174 ) ) ;
#135 = FACE_OUTER_BOUND ( 'NONE', #65, .T. ) ;
#136 = CIRCLE ( 'NONE', #128, 25.00000000000000000 ) ;
#137 = DIRECTION ( 'NONE',  ( -1.000000000000000000, -0.000000000000000000, -0.000000000000000000 ) ) ;
#138 = EDGE_LOOP ( 'NONE', ( #36, #111, #133, #9 ) ) ;
#139 = AXIS2_PLACEMENT_3D ( 'NONE', #90, #26, #53 ) ;
#140 = DIRECTION ( 'NONE',  ( 0.000000000000000000, 0.000000000000000000, 1.000000000000000000 ) ) ;
#141 = DATE_AND_TIME ( #70, #69 ) ;
#142 = APPROVAL_ROLE ( '' ) ;
#143 = APPROVAL_PERSON_ORGANIZATION ( #30, #124, #15 ) ;
#144 = CALENDAR_DATE ( 2020, 22, 12 ) ;
#145 = CARTESIAN_POINT ( 'NONE',  ( 0.000000000000000000, 0.000000000000000000, 0.000000000000000000 ) ) ;
#146 = PERSON_AND_ORGANIZATION ( #47, #164 ) ;
#147 = EDGE_CURVE ( 'NONE', #82, #61, #86, .T. ) ;
#148 = ORIENTED_EDGE ( 'NONE', *, *, #147, .T. ) ;
#149 = CC_DESIGN_DATE_AND_TIME_ASSIGNMENT ( #95, #173, ( #51 ) ) ;
#150 = CARTESIAN_POINT ( 'NONE',  ( 0.000000000000000000, 0.000000000000000000, 25.00000000000000000 ) ) ;
#151 = DIRECTION ( 'NONE',  ( 0.000000000000000000, 0.000000000000000000, 1.000000000000000000 ) ) ;
#152 = PLANE ( 'NONE',  #60 ) ;
#153 = EDGE_CURVE ( 'NONE', #4, #82, #89, .T. ) ;
#154 = FACE_OUTER_BOUND ( 'NONE', #35, .T. ) ;
#155 = UNCERTAINTY_MEASURE_WITH_UNIT (LENGTH_MEASURE( 1.000000000000000082E-05 ), #83, 'distance_accuracy_value', 'NONE');
#156 = APPROVAL_PERSON_ORGANIZATION ( #41, #14, #172 ) ;
#157 = AXIS2_PLACEMENT_3D ( 'NONE', #76, #100, #52 ) ;
#158 = APPROVAL_DATE_TIME ( #141, #14 ) ;
#159 = CALENDAR_DATE ( 2020, 22, 12 ) ;
#160 = MANIFOLD_SOLID_BREP ( 'Ðý×', #49 ) ;
#161 = COORDINATED_UNIVERSAL_TIME_OFFSET ( 8, 0, .AHEAD. ) ;
#162 = LOCAL_TIME ( 9, 28, 43.00000000000000000, #108 ) ;
#163 = AXIS2_PLACEMENT_3D ( 'NONE', #98, #114, #169 ) ;
#164 = ORGANIZATION ( 'UNSPECIFIED', 'UNSPECIFIED', '' ) ;
#165 = FACE_OUTER_BOUND ( 'NONE', #40, .T. ) ;
#166 = CARTESIAN_POINT ( 'NONE',  ( 1.999999999999997113, 0.000000000000000000, 0.000000000000000000 ) ) ;
#167 = CARTESIAN_POINT ( 'NONE',  ( 0.000000000000000000, 3.061616997868383043E-15, -25.00000000000000000 ) ) ;
#168 = CC_DESIGN_APPROVAL ( #120, ( #104 ) ) ;
#169 = DIRECTION ( 'NONE',  ( 0.000000000000000000, 0.000000000000000000, -1.000000000000000000 ) ) ;
#170 = PERSON_AND_ORGANIZATION_ROLE ( 'design_owner' ) ;
#171 = CC_DESIGN_PERSON_AND_ORGANIZATION_ASSIGNMENT ( #20, #131, ( #174 ) ) ;
#172 = APPROVAL_ROLE ( '' ) ;
#173 = DATE_TIME_ROLE ( 'creation_date' ) ;
#174 = PRODUCT_DEFINITION_FORMATION_WITH_SPECIFIED_SOURCE ( 'ANY', '', #38, .NOT_KNOWN. ) ;
#175 = APPROVAL_STATUS ( 'not_yet_approved' ) ;
ENDSEC;
END-ISO-10303-21;
